kumbaworld
Rockin'all over the world
Status quo
7. 6. 5. 4. 3. 2. 1. <= frets
-----|-----|-----|-----|-----|-----|--0)-|-----| E
-----|-----|-----|-----|-----|--0--|--0)-|-----| A
-----|-----|-----|-----|--0--|-----|--0)-|-----| D
-----|-----|-----|-----|-----|-----|--0)-|-----| G
-----|-----|-----|-----|--0--|-----|--0)-|-----| H
-----|-----|-----|-----|-----|-----|--0)-|-----| E

F#dim |



C
1. A-HERE-EE-YUP A-HERE-EE-YUP A-HERE WE GO

F C
FOUR IN THE MORNIN' JUSTA HITTIN' THE ROAD - HERE WE GO-OH

G C
ROCKIN' ALL OVER THE WORLD

C
2. A-GEEDEEUP - A-GEEDEEUP A-GET AWAY

F C
OR WE'RE GOING CRAZY AND WE'RE GOING TODAY - HERE WE GO-OH

G C
ROCKIN' ALL OVER THE WORLD

C
ref.: AND I LIKE IT - I LIKE IT - I LIKE IT - I LIKE IT

F C
I LA-LA-AH-LIKE IT LA-LA-AH-LIKE HERE WE GO-OH

G C
ROCKIN' ALL OVER THE WORLD


*1. guitar solo (Rick):

C F
E|----8----8-------------/13-13-13-/13-13-13-/13-13-13-13-11-10-8-8-10-8-|
H|----8----8-------------/13-13-13-/13-13-13-/13-13-13-13-11-10-8-8-10-8-|
G|-/9---/9---7b8r7-5---5-------------------------------------------------|
D|-------------------7---------------------------------------------------|
A|-----------------------------------------------------------------------|
E|-----------------------------------------------------------------------|

C G C
E|-8-8----------------8-8---------------------|
H|-8-8-10-8-----------8-8-10-8----------------|
G|-----10-8h9-------------10-8h9--------------|
D|------------10-8---------------10-8----10---|
A|-----------------10-----------------10------|
E|--------------------------------------------|

*2. guitar solo (Francis) :
C
E|----15----15----15----15----15----15----15----15----15----15----15-------|
H|-15b17-15B17-15b17-15B17-15b17-15b17-15b17-15b17-15b17-15b17-15b17-------|
G|-------------------------------------------------------------------------|
D|-------------------------------------------------------------------------|
A|-------------------------------------------------------------------------|
E|-------------------------------------------------------------------------|


C/E(bass) F
E|----15--------------15b17-15-14-13-12--------------------|
H|-15b17r15-13----13--------------------15-13----15----13--|
G|-------------14-----------------------------14----14-----|
D|---------------------------------------------------------|
A|---------------------------------------------------------|
E|---------------------------------------------------------|


C G C
E|-------------------------15b17r15-15b17----------------------------------|
H|-15b17r15p13-15-13----13----------------15b17r15-13-13-------------------|
G|-------------------14-----------------------------------------5-----5----|
D|--------------------------------------------------------------5-----5----|
A|----------------------------------------------------------6h7---6h7------|
E|-------------------------------------------------------------------------|


C
3. I'M GONNA TELL YOUR MAMA WHAT YOUR DADDY DO

F C
HE COME OUT OF THE NIGHT WITH YOUR DANCIN' SHOES - HERE WE GO-OH

G C
ROCKIN' ALL OVER THE WORLD

C
ref.: AND I LIKE IT - I LIKE IT - I LIKE IT - I LIKE IT

F C
I LA-LA-AH-LIKE IT LA-LA-AH-LIKE HERE WE GO-OH

G C
ROCKIN' ALL OVER THE WORLD

C C/E
ref.: AND I LIKE IT - I LIKE IT - I LIKE IT - I LIKE IT

F F#dim C
(with I LA-LA-AH-LIKE IT LA-LA-AH-LIKE HERE WE GO-OH

breaks) G C
ROCKIN' ALL OVER THE WORLD

C
ref.: AND I LIKE IT - I LIKE IT - I LIKE IT - I LIKE IT

F C
I LA-LA-AH-LIKE IT LA-LA-AH-LIKE HERE WE GO-OH

G C
ROCKIN' ALL OVER THE WORLD

C C/E
ref.: AND I LIKE IT - I LIKE IT - I LIKE IT - I LIKE IT

F F#dim C
I LA-LA-AH-LIKE IT LA-LA-AH-LIKE HERE WE GO-OH

G C
ROCKIN' ALL OVER THE WORLD


guitar to fade : C-C-F-F#dim-C-G-C-C
bass : C-E-F-F# -G-G-C-C