kumbaworld
Lletra / Lyrics: Whatever You Want - Status quo
Whatever You Want
Status quo

Tune bottom E down to a D.

Heads down and boogie...............


E|---3-----3-----------3-------2-----2-----3-----2-----|
B|-1---1-----1-0h1p0-----0-------3-----3-----3-----3---|
G|-------0-----------0-----0-------2-----2-----2-------|
D|---------------------------0-------------------------|
A|-----------------------------------------------------|
D|-----------------------------------------------------|


E|---3-----3-----------3-------2-----2-----3-----2-----|
B|-1---1-----1-0h1p0-----0-------3-----3-----3-----3---|
G|-------0-----------0-----0-------2-----2-----2-------|
D|---------------------------0-------------------------|
A|-----------------------------------------------------|
D|-----------------------------------------------------|


E|------------------------------------2------5---------|
B|----3------3-----3-----3------------3------6---------|
G|------0------0-----0-----0----------2------5---------|
D|--------2------------2--------------0----------------|
A|--3------------2-------------------------------------|
D|---------------------------3-2-0-0-------------------|


E|-----------------------------------------------------|
B|-----------------------------------------------------|
G|------------5------------5------------5------------5-|
D|------------5------------5------------5------------5-|
A|-----------------------------------------------------|
D|-0-00-00-00---0-00-00-00---0-00-00-00---0-00-00-00---|


E|-----------------------------------------------------|
B|-----------------------------------------------------|
G|------------5------------5------------5------------5-|
D|------------5------------5------------5------------5-|
A|-----------------------------------------------------|
D|-0-00-00-00---0-00-00-00---0-00-00-00---0-00-00-00---|




WHATEVER YOU WANT (R.Parfitt/A.Bown)


D
Whatever you want

Whatever you like

Whatever you say

You pay your money

You take your choise
A
Whatever you need

Whatever you use
D
Whatever you win

Whatever you loose

D
Youre showing of

Youre showing out

You look for trouble

Turn around, give me a shout
A
I take it all

You squeeze me dry
D
And now today

You couldnt even say goodbye

F C
I could take you home
D F - D
On the midnight train again
F C H E - A
I could make an offer you cant refuse

D
Whatever you want

Whatever you like

Whatever you say

You pay your money

You take your choise
A
Whatever you need

Whatever you use
D
Whatever you win

Whatever you loose

Guitar Solo:
F
E|------------------------------------13----------13------------------------|
H|---------------------------------13----------13---------------------------|
G|------13-13-------13-13----15b17-------15b17-------15b17r15-13----13------|
D|-13h15------13h15-------15-------------------------------------15----(15)-|
A|--------------------------------------------------------------------------|
E|--------------------------------------------------------------------------|

G
E|---------------------------------15--------------|
H|------------------------------15----18p15--------|
G|------------------------17b19-------------17-15--|
D|-13-13-------13-13-------------------------------|
A|-------13h15-------15----------------------------|
E|-------------------------------------------------|

C F
E|---------8-----------------------------------------------|
H|-------8---11p8------------------------------------10-13-|
G|-10b12----------10-8h9-------------------10--10-12-------|
D|-----------------------10----------10-12-----------------|
A|--------------------------8--8-/12-----------------------|
E|---------------------------------------------------------|

E A
E|-13-12-10----------------------------------------|
H|----------13b15r13-12--15/15b17-15-15b17---------|
G|-------------------------------------------------|
D|-------------------------------------------------|
A|-------------------------------------------------|
E|-------------------------------------------------|


D
Youre showing of

Youre showing out

You look for trouble

Turn around, give me a shout
A
I take it all

You squeeze me dry
D
And now today

You couldnt even say goodbye

F C
I could take you home
D F - D
On the midnight train again
F C H E - A
I could make an offer you cant refuse

D
Whatever you want

Whatever you like

Whatever you say

You pay your money

You take your choise
A
Whatever you need

Whatever you use
D
Whatever you win
C
Whatever you loose
G A-A-A-A-AAAAAAA
Whatever you want.....