kumbaworld
La flaca
Jarabe de palo


|---------------------------------|
|---------------------------------|
|---------------------------------|
|-----------0-0-0-0-0-0-0---------|
|-------------------------0-0-0-0-|
|-0--3--0-------------------------|

|---------------------------------|
|---------------------------------|
|---------------------------------|
|-----------0-0-0-0-0-0-0---------|
|-------------------------0-0-0-0-|
|-0--3--0-------------------------|






Am E D
En la vida conoci mujer igual a la flaca
C E A
Coral negro de La Habana tremendísima mulata
E D
Cien libras de piel y hueso 40 kilos de salsa
Am E F F# G
y en la cara los soles que sin palabras hablan.
(espacio) Am Am E
............que sin palabras hablan.

E D
La flaca duerme de dia dice que así el hambre engaña
C E Am
cuando cae la noche baja a bailar a la tasca.
E D
Y bailar y bailar y tomar y tomar
F E F
una cerveza tras otra pero ella nunca engorda,
F#..G Am D
pero ella nunca engorda.


F G Am
Por un beso de la flaca daria lo que fuera
D
por un beso de ella aunque solo uno fuera.
F G Am
Por un beso de la flaca daria lo que fuera
D
por un beso de ella aunque solo uno fuera.
F F#..G Am E (Punteo) Am
(Espacio) Aunque solo uno fuera.

E D
Coge mis sabanas blancas como dice la canción
C E Am
recordando las caricias que me brindo el primer dia
E D
y enloquezco de ganas de dormir a su ladito
F E F G
porque Dios que esta flaca a mi me tiene loquito.
Am D
A mi me tiene loquito.

F G Am
Por un beso de la flaca yo daria lo que fuera
D
por un beso de ella aunque solo uno fuera.
F G
Por un beso de la flaca yo daria lo que fuera
Am D F F#..G
por un beso de ella aunque solo uno fuera.
Am D E F G
Aunque solo uno fuera. Aunque solo uno fuera.
Am D
Aunque solo uno fuera.