kumbaworld
A Fuego
Extremoduro
>> = vibrato
b = bajo
g1 = guitarra 1
Intro g2 = guitarra 2

G#5 A#5 B5 C#5 D#5
e|-------------------------|
B|-------------------------|
G|-------------------------|
D|-------------------------| Esto lo hace el b y la g1
A|-------1---2---4---6>>---|
E|---4---------------------|

G#5 A#5 B5 C#5 D#5
e|-------------------------|
B|-------------------------|
G|-------------------------| Lo mismo, pero ahora el b, la g1
D|-------------------------| y la g2
A|-------1---2---4---6>>---|
E|---4---------------------|


Riff 1 (MUY RÁPIDO) - b, g1 y g2.

e|-------------------|
B|-------------------|
G|-------------------|
D|-------------------| X 8
A|-----------4---6---|
E|---4---4-----------|


Riff 2 (MUY RÁPIDO) - b, g1 y g2.

e|-----------------------------------|
B|-----------------------------------|
G|-----------------------------------|
D|---------------6-------------------| X 8
A|-----------4-------6---4---6---4---|
E|---4---4---------------------------|


Riff 3 - g1 y g2.

C#5 D#5 G#5 G5
e|-------------------|
B|-------------------|
G|-------------------|
D|-----------6---5---| X 2
A|---4---6-----------|
E|-------------------|


Ya están los riffs, ahora os pongo la letra y la distribución.
No he sakado ni los punteos ni el solillo (porke están muy kurrados)
-LETRA Y DISTRIBUCIÓN-


Intro

Riff 1 + Riff 2 + Riff 3 + Riff 1


Riff 1
A fuego lento no se calientan mis huesos

Riff 2
y bajé al infierno a ver dónde se cuecen tus besos.

G#5 C#5 D#5
Cansado de buscar un trocito de cielo

Riff 3
lleno de pelos.


ESTRIBILLO A :

Riff 3
Y a deshora sale un sol alumbrando una esquina

Riff 3
y alegrándome el día.


ESTRIBILLO B :

G#5 C#5 D#5
¿Dónde están los besos que te debo?

C#5
En una cajita.

G#5 C#5 D#5
Que nunca llevo el corazón encima,

C#5
por si me lo quitan.


SOLO


Riff 1
Me salgo de mi casa, me estrello contra la acera.

Riff 1
No puedo recordar qué clase de mundo hay fuera.

G#5 C#5 D#5
Salté por la ventana buscando una liana :

Riff 3
“¡Árbol va!” y Tarzán al suelo. ¡Ooooh, ooooh!


Riff 1
Y harto de buscarte siempre a oscuras

Riff 1
y de volverme de puro hielo.

Riff 1
Tiré toda mi vida a la basura

Riff 1
y ni las ratas se la comieron.

E5 C#5 G#5
Nadie me persigue, pero yo acelero.

E5 C#5 G#5
Llaman a mi puerta y ya a nadie espero.


Riff 3 + PUNTEO DE g2


ESTRIBILLO B


ESTRIBILLO C :

G#5 C#5 D#5
¿Dónde están los besos que me debes?

C#5
En cualquier esquina,

G#5 C#5 D#5
cansados de vivir en tu boquita.

C#5
Siempre a la deriva.


PUNTEOS de g1 y g2


E5 C#5 G#5
Llevas en tus braguitas el amor de visita,

E5 C#5 G#5
y en mis pantalones, entre los cojones.

E5 C#5 G#5
Voy a tatuarme azul una casitaaaa

E5 C#5 G#5
para que allí vivan nuestros corazones.


ESTRIBILLO A


ESTRIBILLO B

ESTRIBILLO C


E5 C#5 G#5
Cuando ya no puedo más saco para respirar.

E5 C#5 G#5
Un ratito el corazón, que lo tengo en carne vivaaa.

E5 C#5 G#5
Sólo un poco de calor hace que me vuelva la vida.

E5 C#5 G#5
Y lo pongo a secar al sol, escondido en un renglón.


ESTRIBILLO A


ESTRIBILLO B


ESTRIBILLO C


ESTRIBILLO B ----------
----- x 2
-----
ESTRIBILLO C ----------


Al final, termina repitiendo las primeras frases del los
estribillos B y C, y la g2 hace un punteo que acompaña al final indefinido