kumbaworld
Tears in heaven
Clapton, Eric
Would you know my name if I saw you in heaven?
Would it be the same if I saw you in heaven?
I must be strong and carry on,
'Cause I know I don't belong here in heaven.

Would you hold my hand if I saw you in heaven?
Would you help me stand if I saw you in heaven?
I'll find my way through night and day,
'Cause I know I just can't stay here in heaven.

Time can bring you down, time can bend your knees.
Time can break your heart, have you begging please, begging please.

Beyond the door there's peace I'm sure,
And I know there'll be no more tears in heaven.

First Verse


INTRO:

e:---------------------------------------------------------------------------|
B:---------------2h3h2-------5------5----2-----------2---------2---------2---|
G:-----------2-----------2---4------4----2-----------2---------2---------2---|
D:-----------2---------------------------------------------------------------|
A:-------0-------------------------------------------------------------------|
E:-0h2-----------------------4-----------2------2---------2---------0--------|

e:-------------------------------------------------------------------------------|
B:-------3-----------3-----------3---------3--------2-------------2------------2-|
G:-------2-----------2-----------2---------1--------2-------------2------------2-|
D:-------------------------------------------------------------------------------|
A:---------------------------------------------------------0-------------0-------|
E:-0-----------2-----------2-----0---------0-------------------------------------|

STANZA:
e:---------------------------------------------------------------------------|
B:----------------2h3h2--------5---------5---2-----------2---------2---------|
G:-----------2------------2----4---------4---2-----------2---------2---------|
D:-----------2---------------------------------------------------------------|
A:------0--------------------------------------------------------------------|
E:-0h2-------------------------4----4--------2------2---------2---------0----|

e:-------------------------0------------------------0------------------------|
B:2---------3---------3---------2---------2---------0---------0---------2----|
G:2---------2---------2---------2---------2---------1---------1---------2----|
D:---------------------------------------------------------------------------|
A:---------------------------------------------------------------------------|
E:-----0---------2-------------------0---------0----0----0---------0---------|

e:---------------------------------------------------------------------------|
B:-----3---------2---------2h3h2-------5---------5----2-----------2---------2|
G:-----4---------2----------------2----4---------4----2-----------2---------2|
D:---------------------------------------------------------------------------|
A:---------------0----0------------------------------------------------------|
E:0---------0--------------------------4----4---------2------2---------2-----|

e:------------------------------------0------------------------0-------------|
B:---------2-----------3---------3---------2---------2---------0---------0---|
G:---------2-----------2---------2---------2---------2---------1---------1---|
D:---------------------------------------------------------------------------|
A:---------------------------------------------------------------------------|
E:----0---------0-----------2-------------------0---------0----0----0--------|

e:--------------------------------------------------------------------1------|
B:------2---------3---------2---------2---------2---------2-----------2------|
G:------2---------4---------2---------2---------2---------2-----------1------|
D:---------------------------------------------------------------------------|
A:---------------------------------------------------------------------------|
E:-0---------0---------0----1----2---------2---------2---------0-----------1-|

e:---1---------1---------1---------------------------------------------------|
B:---2---------2---------2-----------2---------2-----------2---------2-------|
G:---1---------1---------1-----------0---------0-----------0---------0-------|
D:-----------------------------------2---------2-----------2---------2-------|
A:---------------------------------------------------------------------------|
E:--------1---------1---------1-----------0---------0-----------0---------0--|

e:---------------------------------------------------------------------------|
B:----2---------2-------------------2------3---------3----------3-----------3|
G:----3---------0---------4----------------2---------2----------2-----------2|
D:----2---------2---------2---------------------4----------------------------|
A:----------------------------------1------2---------------------------------|
E:----2----2---------2---------4-------------------------------------0-------|

e:---------------------0-----------------------------------------------------|
B:----3---------3----------------------------2h3h2--------5------5----2------|
G:----2---------2-----------------------2------------2----4------4----2------|
D:--------------------------------------2------------------------------------|
A:---------------------------------0-----------------------------------------|
E:---------0----------------0h2---------------------------4-----------2------|

e:---------------------------------------------------------------------------|
B:--------3----------3---------3-----3------2---------2---------2---------2--|
G:--------2----------2---------2-----1------2---------2---------2---------2--|
D:---------------------------------------------------------------------------|
A:-----------------------------------------------0---------0---------0-------|
E:--------------2---------2----0-----0---------------------------------------|

e:---------------------------------------------------------------------------|
B:-------3-----------0----------3--------3-----------2-----------2-----------|
G:-------2-----------2----------2--------2-----------2-----------2-----------|
D:---------------------------------------------------------------------------|
A:---------------------------------------------------0-----0-----------0-----|
E:--0h2--2-----2-----------2----0--------0-----0-----------------------------|

e:------------------------------------------------------0--------------------|
B:2-----2-----------------------5--------5---------3-----------1---------1---|
G:2-----2------------------------------------------0-----------0---------0---|
D:------------------------------5--------4-----------------------------------|
A:-------------0h2----3----3------------------2----------------0----0--------|
E:---------------------------------------------------------------------------|

e:---------------------------------------------------------------------------|
B:-----5---------3--------0-----3---------3---------3--------------0---------|
G:-----2---------2--------0-----0---------2---------2--------------0---------|
D:-----------------------------------0---------------------------------------|
A:----------------------------------------------------------------------0----|
E:-----2----2-------------3---------------2----2---------2-------------------|

e:---------------------------------------------------------------------0-----|
B:3---------3--------3-----------------------5---------3---------3-----------|
G:0---------2--------0-------------------------------------------0-----------|
D:-------------------------------------------5---------4---------------------|
A:-------------------2----2------3-----3--------------------2----------------|
E:-----0----2----2-----------------------------------------------------------|

e:---------------------------------------------------------------------------|
B:1---------1------3---------3----------0------3------3-----------3----------|
G:0---------0------2---------2----------0------0------2-----------2----------|
D:---------------------------------------------------------------------------|
A:0----0---------------------------------------------------------------------|
E:-----------------2----2---------------3-------------------2-----------0----|

e:---------------------------------------------------------------------------|
B:-----------0---------2---------3-------------------------------------------|
G:-----------1---------2---------4---------------------6--slide-down-2-------|
D:---------------------------------------------------------------------------|
A:---------------------------------------------------------------------------|
E:------0---------0---------0------------------------------------------------|

e:-------0----------------------------------------------------0---------0----|
B:--------------2----2------2---------2--------3---------3---------2---------|
G:4-------------------------2---------2--------2---------2---------2---------|
D:2--------------------------------------------------------------------------|
A:---------------------------------------------------------------------------|
E:4-------------------------0----0-------------2----2--------------0----0----|

e:-----0-------------------0-------------------0-----------------------------|
B:2-------------------0---------2---------3----------------------------------|
G:2-------------------1---------2---------4--------------6---slide-down---2--|
D:---------------------------------------------------------------------------|
A:---------------------------------------------------------------------------|
E:-----0----0----0---------0---------0---------------------------------------|

e:--------------------------------5------5--slide-up-7--slide-down--5--------|
B:----------------5----------------------5--slide-up-7--slide-down--5--------|
G:----4-----------4-------------------------------------------------------5-s|
D:----2-------------------------------------------------------------------4-s|
A:---------------------------------------------------------------------------|
E:----4-----4----------------------------------------------------------------|

e:----------------------------------------0-----------------------------0----|
B:-------------------------------------------------3-------------3-----------|
G:lide-up--7--slide-down--5------2-----------------2-------------2-----------|
D:lide-up--6--slide-down--4------2-------------------------------------------|
A:---------------------------------------------------------------------------|
E:-------------------------------------------------2------2------------------|

e:---------0-------------0------------------------0--------------------------|
B:--2-------------2------------------------0-------------2--------3----------|
G:--1-------------2------------------------1-------------2--------4----------|
D:---------------------------------------------------------------------------|
A:---------------------------------------------------------------------------|
E:--0-----------------------------0------------------------------------------|

e:---------------------------------------------------------------------------|
B:3-----2------------------------------------------2h3h2---------------------|
G:------------4-----2-----2------4--------2----------------2-----------------|
D:-------------------------------------------------------------2--------2----|
A:-----------------------------------------------------------------0---------|
E:---------------------------------------------------------------------------|

e:-----------|
B:-----------|
G:2----------|
D:-----2-----|
A:----------0|
E:-----------|