kumbaworld
Lletra / Lyrics: Mar de ver - Sangtrat
Mar de ver
Sangtrat
#------------------------------------------------------------------------------------#
#Aquest fitxer s fruit del treball del seu autor i representa la seva interpretaci #
#de la can. Noms podeu usar aquest fitxer per estudi o recerca. #
#------------------------------------------------------------------------------------#


----

SANGTRAT: Mar de ver (4:42)
Pista 9 de 'Noctambulus' (1996)
----
Transcrita per Pau Canal i Oliver (p___a__u@hotmail.com) (Barcelona)
Afinaci guitarra: 5a corda (La) a 440 Hz (Afinaci normal)

----

La can fa aix:


Introducci A
[Sn dues guitarres que, juntes, ms o menys fan aquesta melodia]
jugant amb lam Lasus2 mim
e:---------------------------|---------------------------|-0-------0-0---0-|
B:-----1-0-1-----0-1-0-1-----|-----1-0-1-----0-1-0-1-----|-0---0---0-0---0-|
G:----------2------------2---|----------2------------2---|-0---0---0-0---0-|
D:---2-------2-2-----------2-|---2-------2-2-----------2-|-2-------2-2---2-|
A:-0----------0--------------|-0----------0--------------|-2-------------2-|
E:---------------------------|---------------------------|-0---------------|


Estrofa 1A
[Altre cop dues guitarres que, ms o menys, fan:]
jugant amb lam Lasus2 Resus2
e:---------------------------|---------------------------|-------0-------0-------0-----|
B:-----1-0-1-----0-1-0-1-----|-----1-0-1-----0-1-0-1-----|-----3---3-------3-------3---|
G:----------2------------2---|----------2------------2---|---2-------2-------2-------2-|
D:---2-------2-2-----------2-|---2-------2-2-----------2-|-0-----------0-------0-------|
A:-0----------0--------------|-0----------0--------------|-----------------------------|
E:---------------------------|---------------------------|-----------------------------|
Em mira. Tremolo. La cara em bull plena de foc.

jugant amb lam Lasus2
e:---------------------------|---------------------------|
B:-----1-0-1-----0-1-0-1-----|-----1-0-1-----0-1-0-1-----|
G:----------2------------2---|----------2------------2---|
D:---2-------2-2-----------2-|---2-------2-2-----------2-|
A:-0----------0--------------|-0----------0--------------|
E:---------------------------|---------------------------|
L'estimo. Ho sento. No mano jo dins el meu

[i ara ja distorsionant:]
Mi(P)(5a c) Do4(4a c) Si4(4a c) Si(P) Do(P) La(P)
cor. Si po - gus perdre el seny fredament...


Estrofa 2A
Es moren els dies
i amb ells em moro tamb jo.
Les hores s'empassen
hores d'amor que no tindr.
Si pogus guanyar al temps fredament...


Estrofa 3B
[Una guitarra fa el mateix que en l'estrofa A, per tot un to ms amunt.
Mentrestant l'altra guitarra distorsiona com segueix:]
Si(P)
Somnio manyagues
Si(P) Mi(P)(5a c)
que amb els meus dits jo no em s fer,
Si(P) Si(P) Fa#(P)(5a c)
paraules, callades, que amb els meus llavis mai dir.
Re4(4a c) Do#4(4a c) Do#(P) Re(P) Si(P)
Si po - gus besa'l vent fredament...


Tornada 1
Sol(P) Sol(P) Si(P) Si(P) La(P)
La nit amaga els somnis que jo s.
Sol(P) Sol(P) Si(P) Si(P) La(P)
Quan penso no, sempre s que s.
Sol(P) Sol(P) Si(P) Si(P) La(P)
El seu somriure dorm sovint amb mi.
Sol(P) La(P)
La seva veu em fa sentir
Sol(P) La(P)
com si jo fos el seu amor.
Sol(P)
Sols dins el llit...


Solo
[sobre fons de tornada]
[Crec que una pentatnica major de Re queda b]


Tornada 2
[amb frases de guitarra]
Per art de mgia es converteix
en "algo" bo que guardo dins.
Ballem plegats sobre d'un mar immens,
fet de dolor, ple de ver...
Com si no fos el meu amor
se'n va de mi quan surt el sol.


Tornada 3
[tamb amb arrenjaments de guitarra]
La nit amaga els somnis que jo s,
la llum del dia els fa morir.
Secrets d'amor guardats a dintre del meu pit,
ple de dolor, ple de ver...
Com si no fos el meu amor [i aqu s'interromp]

Coda
[unes veus repetint] el meu amor


-------

Acords acstics
lam Lasus2 Resus2 mim
e:--0-------0-------0-----0---|
B:--1-------0-------3-----0---|
G:--2-------2-------2-----0---|
D:--2-------2-------0-----2---|
A:--0-------0-------------2---|
E:--0-------0-------------0---|

Acords de potncia
La(P) Si(P) Do(P) Do#(P) Re(P) Mi(P)(5a c) Fa#(P)(5a c) Sol(P)
e:-----------------------------------------------------------------|
B:---b----b--------------------------------------------------------|
G:--2-----4-------5------6------7--------9----------11---------------|
D:--2--7--4--9----5------6------7--------9----------11---------5-----|
A:--0--7--2--9----3------4------5--------7-----------9---------5-----|
E:-----5-----7-------------------------------------------------3-----|

Acords de quarta
Si4(4a c) Do4(4a c) Do#4(4a c) Re4(4a c)
e:--------------------------------------------|
B:--------------------------------------------|
G:-------9--------10-------11----------12-----|
D:-------9--------10-------11----------12-----|
A:--------------------------------------------|
E:--------------------------------------------|