kumbaworld
Burn
Deep purple
Burn
(Blackmore/Coverdale/Lord/Paice)
From "Burn", 1974

E--------------------------------------------------------------------
B--------------------------------------------------------------------
G-------3------2---0----5----0-----3----2-----0-----5-----3----------
D--------3----2-----0----5----0-----3----2-----0-----5-----3---------
A--------------------------------------------------------------------
E--------------------------------------------------------------------

E--------------------------------------------------------------------
B--------------------------------------------------------------------
G-------3----2---0----5--0----3---2----0-----------------------------
D---------3---2----0----5---0----3---2---0----3----------------------
A----------------------------------------------3---------------------
E-----------------------------------------------3--------------------

Gm
The sky is red,..I don´t understand.
F
Past midnight I still see the land.

Gm C with G on bass
The people are saying the woman is damned, she makes you burn with a wave
of her hand. -> back to the main guitar riff!

Gm
The city´s ablaze, the town´s on fire.
F
The woman´s flame are reaching higher.
Gm
We were fools we called her liar.
Bb F C Gm
All I hear ...........is BURN -> back to main guitar riff!