kumbaworld
La meva terra es la mar
Lax'n'busto
Lax´n´Busto - La meva terra és el mar

Intro:
|--------------------|--------------------|
|--------------------|--------------------|
|--------3---2-------|--------3---2-------| x2
|------5---5---3---3-|------5---5---3---3-|
|--5-------------3---|--5-------------3---|
|--------------------|--------------------|

Soc navegant solitari
|--------------------|--------------------|
|--------------------|--------------------|
|--------3---2-------|--------3---2-------|
|------5---5---3---3-|------5---5---3---3-|
|--5-------------3---|--5-------------3---|
|--------------------|--------------------|

Soc mariner sense port
|--------------------|--------------------|
|--------------------|--------------------|
|--------3---2-------|-------7---8---7----|
|------5---5---3---3-|-----8---8---8---8--|
|--5-------------3---|--8-----------------|
|--------------------|--------------------|

Mai no he tingut calendari
|--------------------|--------------------|
|--------------------|--------------------|
|--------3---2-------|--------3---2-------|
|------5---5---3---3-|------5---5---3---3-|
|--5-------------3---|--5-------------3---|
|--------------------|--------------------|

El meu rellotge soc jo
|--------------------|--------------------|
|--------------------|--------------------|
|--------3---2-------|-------7---8---7----|
|------5---5---3---3-|-----8---8---8---8--|
|--5-------------3---|--8-----------------|
|--------------------|--------------------|

Que no tinc segons i que allargo les hores
|-------------------|-----------------------------------|
|-------------------|-----------------------------------|
|-------2---3---2---|-------3---5--3h2h3-2-------3-2----|
|-----3---3---3---3-|-----5---5------------3---3--3--3--|
|--3----------------|--5---------------------3----------|
|-------------------|-----------------------------------|

Es repeteix amb la segona lletra.

Tornada(Rascat):
Bb F Gm D#
Dona´m força per cridar
Bb
que no soc d´aquí
F
tampoc soc d´allà
D# D
la meva terra es el mar
Bb F Gm D#
dona´m força per cridar
Bb F
que jo soc de mi, no soc de ningú
D# D
i sempre així serà

Es repeteixen els arpegiats del principi amb la següent lletra:

Vaig neixer sense fronteres
no crec en les possessions, doncs penso que,
hi ha massa coses que ens separen
i tots som del mateix món
no crec en nacions ni en obligacions, ni en obligacions.

Bb F Gm D#
Dona´m força per cridar
Bb
que no soc d´aquí
F
tampoc soc dallà
D# D
soc part de loceà
Bb F Gm D#
donam força per cridar

Bb F D# D Gm
Que jo soc de mi no soc de ningu i la meva terra es el mar fet daigua i sal
Gm D# D Gm
sota laigua no hi ha peles ni banderes ni nacions
D# F (STOP)
el silenci q menvolta es la solfa q em fa viure, viure i ser lliure, lliure

Solo:
|---------------------------------------------------|
|---------------------------------------------------|
|--------------5--------5-7h8h77-5-87-5-7---7h8h10-7|
|--5---55-h77h8---8-88h7------------------8---------|
|5-----------------------------------------8--------|
|---------------------------------------------------|

|------------------------------------------|
|------------------------------------------|
|-5-7-----------5--------5-7-8-7--7-5-8-7-5|
|-----5-55-77-8---8-88-7-------------------|
|------------------------------------------|
|------------------------------------------|

|-------------------------------------------------5-6-8-6--|
|-6-6-6-6-------------------------------------6-8----------|
|---------8-7-5---5-7-------------------5-7-8--------------|
|---------------8-----------------5-7-8--------------------|
|---------------------------5-6-8--------------------------|
|---------------------5h6-8--------------------------------|


Bb F Gm D#
Dona´m força per cridar
Bb F D# D
q si l´aigua és amor jo de pedra no soc i mullam un altre cop
Bb F Gm D#
donam força, tornam boig
Bb F D# D Bb-F-Gm-D#
q si l´aigua és amor jo de pedra no soc i mullam un altre cop dins el coor
Bb-F-D#-D
dins el coor

Coda: Bb-F-Gm-D#-Bb-F-D#-D(x3) Gm

Marc Rios,
per cualsevol suggeriment o consulta: marcrios84@gmail.com