kumbaworld
Depende
Jarabe de palo
Tabulado por: Eduard del Rio vestal@teleline.es

INTRO:

C
|-------------------------------------|
|----1----1-------1---1----1----------|
|--------0-0-----0--------0-0-----0---|
|-----0h2---2-0h2------0h2---2-0h2----|
|--3----------------3-----------------|
|-------------------------------------|
X2


VERSOS:

C Am
|-------------------------------------|----------0--------------0---------|
|----1----1-------1---1----1----------|----1-0h1--1-0h1---1-0h1--1-0h1-1--|
|--------0-0-----0--------0-0-----0---|---------2------2-------2----------|
|-----0h2---2-0h2------0h2---2-0h2----|----2--------------2---------------|
|--3----------------3-----------------|--0---------------0----------------|
|-------------------------------------|-----------------------------------|
X2

C
Que el blanco sea blanco y que el negro sea negro,

que uno y uno sean dos porque exactos son los números
Am

..... depende.
C
Que aquí estamos de prestao, y hoy el cielo está nublao,

y uno nace y luego muere, y este cuento se ha acabao
Am
..... depende.
F C
Depende, de qué depende,
Am E
de según como se mire todo depende.
F C
Depende,de qué depende,
sol C Am G F C
de segun como se mire todo depende

C
Que bonito es el amor, más que nunca en primavera,

que mañana sale el sol porque estamos en agosto
Am
..... depende.
C
Que con el paso del tiempo el vino se hace bueno,

que to lo que sube baja de abajo a arriba y de arriba a abajo
Am
..... depende.

estribillo

C
Que no has conocido a nadie que te bese como yo,

que no hay otro hombre en tu vida que de ti se beneficie
Am
..... depende.
C
Que si quiere decir sí cada vez que abres la boca,

que te hace muy feliz que hoy sea el día de tu boda
Am
..... depende.

estribillo

(solo)