kumbaworld
Cara al culo
La polla records
e |-----|----|--------|-----|-----|-------------|-----|-----|-------|
B |9-7--|----|-----7-9|-7---|--10-|10-9-7---9-7-|9-7--|-----|----7-9|
G |----9|-9-9|-8-9----|---9-|9----|-------9-----|----9|-9-9-|8-9----|
D |-----|----|--------|-----|-----|-------------|-----|-----|-------|
A |-----|----|--------|-----|-----|-------------|-----|-----|-------|
E |-----|----|--------|-----|-----|-------------|-----|-----|-------|

e |----|---------|
B |-7--|---------|
G |---9|9--------|
D |----|--5------|
A |----|--3-5-2-3|
E |----|----3-0-1|


Fa
Todos los fascistas viven
La- Do La-
Cara al culo
Fa
Por eso no ven más alla de su nariz
La- Do La-
Cara al culo
Fa
Ya que sois tan religiosos
La- Do La-
Cara al culo
Fa
¿Por que no les dais la paliza a Dios?
La- Do La-
Cara al culo

Esto es lo que haria el bajo aqui:

G |------|----|-------|----|---|------------|--------|----|-------|
D |------|----|-------|----|---|------------|--------|----|-------|
A |-0----|----|------0|----|--1|-1-0-----0--|--0-----|----|-------|
E |---3-1|-1-1|0-1-3--|-3-1|-1-|-----3-1---3|-----3-1|-1-1|-0-1-3-|

G |--------|--------|
D |--------|--------|
A |-0------|-1------|
E |---3-1-1|---3-0-1|

y sigue:
Fa
Fraga muerete
La- Si La-
Cara al culo, cara al culo
dFa
Reegean muerete
La- Si La-
Cara al culo, cara al culo
Fa
Woitilia muerete
La- Si La-
Cara al culo, cara al culo
Fa
Muñecos de feria
La- Si La-
Cara al culo, cara de culo
Fa
La madre Teresa
La- Si Sol
no nos interesa
Fa
La tradición
La- Si Sol
es una maldición
Fa
Las jerarquias
La- Si Sol
son una tontería
Fa
Un patriota
La- Si La-
un idiota