kumbaworld
viure
Obrint pas
Viure

intro x2

D5 A5 B5 G5

Ara ke estik trist,
intente recordar
per les carreteres de la meua soledat.

I en torn a akella olor
de polvora cremant
i el roig de les fogueres de les nits de Sant Joan.

D5 A5
En la festa als carrers
B5
en la pluja d┤estels
G5 D5
el 25 d┤abril amb un nus als sentiments

A5
l┤espenša als ulls
B5
les banderes als vents
G5
i les ganes de viure de la meua gent

D5 A5
Lluitar, crear, construir poder popular
B5 G5
lluitar, crear, contruiir de la meua gent
D5 A5
Lluitar, crear, construir poder popular
B5 G5
lluitar, crear, contruiir de la meua gent

D5 A5 B5 G5 x2

Ara que he tornat,refaig els caminars
e|------------------------------------------------
B|------------------------------------------------
G|-----7-----7-----7-----7------------------------
D|-----7-----7-----7-----7-----7-----7-----7-----7
A|-5-5-5-5-5-5-5-5-5-5-5-5-----7-----7-----7-----7
E|-------------------------5-5-5-5-5-5-5-5-5-5-5-5

pels carrers i places,del lloc on em vaig criar.
e|------------------------------------------------
B|------------------------------------------------
G|------------------------------------------------
D|-----9-----9-----9-----9-----5-----5-----5-----5
A|-----9-----9-----9-----9-----5-----5-----5-----5
E|-7-7-7-7-7-7-7-7-7-7-7-7-3-3-3-3-3-3-3-3-3-3-3-3

I em torna a despertar,aquell vell campanar,
e|------------------------------------------------
B|------------------------------------------------
G|-----7-----7-----7-----7------------------------
D|-----7-----7-----7-----7-----7-----7-----7-----7
A|-5-5-5-5-5-5-5-5-5-5-5-5-----7-----7-----7-----7
E|-------------------------5-5-5-5-5-5-5-5-5-5-5-5

el soroll de les traques,moixaderes i gegants.
e|------------------------------------------------
B|------------------------------------------------
G|------------------------------------------------
D|-----9-----9-----9-----9-----5-----5-----5-----5
A|-----9-----9-----9-----9-----5-----5-----5-----5
E|-7-7-7-7-7-7-7-7-7-7-7-7-3-3-3-3-3-3-3-3-3-3-3-3



D5 A5 B5
Les velles canšons, les noves emocions
G5 D5
el 25 d┤abril construim mes ilusions.
A5
La vida dins dels punys,
B5
la lluita dins la pell,
G5
i les ganes de viure de la meua gent.

D5 A5
Lluitar, crear, construir poder popular
B5 G5
lluitar, crear, contruiir
D5 A5
Lluitar, crear, construir poder popular
B5 G5
lluitar, crear, contruiir

D5 A5 B5 G5 x2

D5 A5
Lluitar, crear, construir poder popular
B5 G5
lluitar, crear, contruiir
D5 A5
Lluitar, crear, construir poder popular
B5 G5 D5
lluitar, crear, contruiir!!