kumbaworld
S┤ase
Ossifar
Tablatura OK, Au id˛...


(INTRO)

-----------4------------4------------4------------4------
-------4----4-------4----4-------4----4-------4----4-----
------6------6-----6------6-----6------6-----6------6----
-----6------------6------------4------------4------------
----4------------4------------4------------6-------------
---------------------------------------------------------


-----------4------------4------------4------------4------
-------4----4-------4----4-------4----4-------4----4-----
------6------6-----6------6-----6------6-----6------6----
-----6------------6------------4------------4------------
----4------------4------------4------------6-------------
---------------------------------------------------------


S┤ase mostra s┤instru... (Tio, quŔ dius?).
-----------4---------------------------------------------
-------4----4-------4------------------------------------
------6------6-----6-------------------------------------
-----6------------6--------------------------------------
----4------------4---------------------------------------
---------------------------------------------------------


S┤ase tÚ un bon sentiment vegent someres pasturar
-----------4------------4------------4------------4------
-------4----4-------4----4-------4----4-------4----4-----
------6------6-----6------6-----6------6-----6------6----
-----6------------6------------4------------4------------
----4------------4------------4------------6-------------
---------------------------------------------------------


Ús aix˛ lo mateix que sent quan te veig, nina, passar
-----------4------------4------------4------------4------
-------4----4-------4----4-------4----4-------4----4-----
------6------6-----6------6-----6------6-----6------6----
-----6------------6------------4------------4------------
----4------------4------------4------------6-------------
---------------------------------------------------------



I me sent pessigolles per sa punta despar (Ja hi tornam a ser?)
---------2-----------4---------------4-------------------
----------2-----------4----------4----4------------------
------3----3------5----5--------6------6-----------------
-----4-----------6-------------6-------------------------
----4-----------6-------------4--------------------------
-1-2-----------4-----------------------------------------



I me sent pessigolles per davall els calšons blancs
---------2-----------4---------------4------------4------
----------2-----------4----------4----4-------4----4-----
------3----3------5----5--------6------6-----6------6----
-----4-----------6-------------6------------6------------
----4-----------6-------------4------------4-------------
-1-2-----------4-----------------------------------------




i Ús que fa tres setmanes que tenc 60 anys, 60 anys...
---------2-----------4---------------4------------4------
----------2-----------4----------4----4-------4----4-----
------3----3------5----5--------6------6-----6------6----
-----4-----------6-------------6------------6------------
----4-----------6-------------4------------4-------------
-1-2-----------4-----------------------------------------



Sa primera vegada sÚ que te costarÓ un poc
---------2-----------4---------------4------------4------
----------2-----------4----------4----4-------4----4-----
------3----3------5----5--------6------6-----6------6----
-----4-----------6-------------6------------6------------
----4-----------6-------------4------------4-------------
-1-2-----------4-----------------------------------------



m┤ho ha dit sa ve´nada que el tÚ...(on vas?) que el tÚ ben...(┤tura, ┤tura!).
---------2----------------4-------4----------------------
----------2----------------4------4----------------------
------3----3-----------5----5-----6----------------------
-----4----------------6-----------6----------------------
----4----------------6-------